  0
SECTION
  2
HEADER
  9
$ACADVER
  1
AC1009
  9
$INSBASE
 10
0.0
 20
0.0
 30
0.0
  9
$EXTMIN
 10
-338.9884251968503
 20
-683.64281530808341
 30
0.0
  9
$EXTMAX
 10
617.29157480314859
 20
316.96993241829199
 30
0.0
  9
$LIMMIN
 10
-368.87217519685026
 20
-714.91196367453267
  9
$LIMMAX
 10
647.17532480314856
 20
348.23908078474119
  9
$ORTHOMODE
 70
               0
  9
$REGENMODE
 70
               1
  9
$FILLMODE
 70
               1
  9
$QTEXTMODE
 70
               0
  9
$MIRRTEXT
 70
               1
  9
$DRAGMODE
 70
               2
  9
$LTSCALE
 40
1.0
  9
$OSMODE
 70
               0
  9
$ATTMODE
 70
               1
  9
$TEXTSIZE
 40
0.2
  9
$TRACEWID
 40
0.05
  9
$TEXTSTYLE
  7
STANDARD
  9
$CLAYER
  8
0
  9
$CELTYPE
  6
CONTINUOUS
  9
$CECOLOR
 62
             256
  9
$DIMSCALE
 40
1.0
  9
$DIMASZ
 40
0.18
  9
$DIMEXO
 40
0.0625
  9
$DIMDLI
 40
0.38
  9
$DIMRND
 40
0.0
  9
$DIMDLE
 40
0.0
  9
$DIMEXE
 40
0.18
  9
$DIMTP
 40
0.0
  9
$DIMTM
 40
0.0
  9
$DIMTXT
 40
0.18
  9
$DIMCEN
 40
0.09
  9
$DIMTSZ
 40
0.0
  9
$DIMTOL
 70
               0
  9
$DIMLIM
 70
               0
  9
$DIMTIH
 70
               1
  9
$DIMTOH
 70
               1
  9
$DIMSE1
 70
               0
  9
$DIMSE2
 70
               0
  9
$DIMTAD
 70
               0
  9
$DIMZIN
 70
               0
  9
$DIMBLK
  1

  9
$DIMASO
 70
               1
  9
$DIMSHO
 70
               1
  9
$DIMPOST
  1

  9
$DIMAPOST
  1

  9
$DIMALT
 70
               0
  9
$DIMALTD
 70
               2
  9
$DIMALTF
 40
25.399999999999999
  9
$DIMLFAC
 40
1.0
  9
$DIMTOFL
 70
               0
  9
$DIMTVP
 40
0.0
  9
$DIMTIX
 70
               0
  9
$DIMSOXD
 70
               0
  9
$DIMSAH
 70
               0
  9
$DIMBLK1
  1

  9
$DIMBLK2
  1

  9
$DIMSTYLE
  2
STANDARD
  9
$DIMCLRD
 70
               0
  9
$DIMCLRE
 70
               0
  9
$DIMCLRT
 70
               0
  9
$DIMTFAC
 40
1.0
  9
$DIMGAP
 40
0.09
  9
$LUNITS
 70
               2
  9
$LUPREC
 70
               4
  9
$AXISMODE
 70
               0
  9
$AXISUNIT
 10
0.0
 20
0.0
  9
$SKETCHINC
 40
0.1
  9
$FILLETRAD
 40
0.0
  9
$AUNITS
 70
               0
  9
$AUPREC
 70
               0
  9
$MENU
  1
acad
  9
$ELEVATION
 40
0.0
  9
$PELEVATION
 40
0.0
  9
$THICKNESS
 40
0.0
  9
$LIMCHECK
 70
               0
  9
$BLIPMODE
 70
               1
  9
$CHAMFERA
 40
0.0
  9
$CHAMFERB
 40
0.0
  9
$SKPOLY
 70
               0
  9
$TDCREATE
 40
0.000000000
  9
$TDUPDATE
 40
0.000000000
  9
$TDINDWG
 40
0.0000000000
  9
$TDUSRTIMER
 40
0.0000000000
  9
$USRTIMER
 70
               1
  9
$ANGBASE
 50
0.0
  9
$ANGDIR
 70
               0
  9
$PDMODE
 70
               0
  9
$PDSIZE
 40
1.0
  9
$PLINEWID
 40
0.0
  9
$COORDS
 70
               1
  9
$SPLFRAME
 70
               0
  9
$SPLINETYPE
 70
               6
  9
$SPLINESEGS
 70
               8
  9
$ATTDIA
 70
               0
  9
$ATTREQ
 70
               1
  9
$HANDLING
 70
               1
  9
$HANDSEED
  5
1B5
  9
$SURFTAB1
 70
               6
  9
$SURFTAB2
 70
               6
  9
$SURFTYPE
 70
               6
  9
$SURFU
 70
               6
  9
$SURFV
 70
               6
  9
$UCSNAME
  2

  9
$UCSORG
 10
0.0
 20
0.0
 30
0.0
  9
$UCSXDIR
 10
1.0
 20
0.0
 30
0.0
  9
$UCSYDIR
 10
0.0
 20
1.0
 30
0.0
  9
$PUCSNAME
  2

  9
$PUCSORG
 10
0.0
 20
0.0
 30
0.0
  9
$PUCSXDIR
 10
1.0
 20
0.0
 30
0.0
  9
$PUCSYDIR
 10
0.0
 20
1.0
 30
0.0
  9
$USERI1
 70
               0
  9
$USERI2
 70
               0
  9
$USERI3
 70
               0
  9
$USERI4
 70
               0
  9
$USERI5
 70
               0
  9
$USERR1
 40
0.0
  9
$USERR2
 40
0.0
  9
$USERR3
 40
0.0
  9
$USERR4
 40
0.0
  9
$USERR5
 40
0.0
  9
$WORLDVIEW
 70
               1
  9
$SHADEDGE
 70
               3
  9
$SHADEDIF
 70
              70
  9
$TILEMODE
 70
               1
  9
$MAXACTVP
 70
              16
  9
$PINSBASE
 10
0.0
 20
0.0
 30
0.0
  9
$PLIMCHECK
 70
               0
  9
$PEXTMIN
 10
1.0000000000000000E+20
 20
1.0000000000000000E+20
 30
1.0000000000000000E+20
  9
$PEXTMAX
 10
-1.0000000000000000E+20
 20
-1.0000000000000000E+20
 30
-1.0000000000000000E+20
  9
$PLIMMIN
 10
0.0
 20
0.0
  9
$PLIMMAX
 10
12.0
 20
9.0
  9
$UNITMODE
 70
               0
  9
$VISRETAIN
 70
               0
  9
$PLINEGEN
 70
               1
  9
$PSLTSCALE
 70
               0
  9
$TREEDEPTH
 70
            3020
  9
$DWGCODEPAGE
  3
dos932
  0
ENDSEC
  0
SECTION
  2
TABLES
  0
TABLE
  2
VPORT
 70
               1
  0
VPORT
  2
*ACTIVE
 70
               0
 10
0.0
 20
0.0
 11
1.0
 21
1.0
 12
139.15157480314915
 22
-183.33644144489574
 13
0.0
 23
0.0
 14
1.0
 24
1.0
 15
0.0
 25
0.0
 16
0.0
 26
0.0
 36
1.0
 17
0.0
 27
0.0
 37
0.0
 40
1063.1510444592739
 41
0.9556944004290262
 42
50.0
 43
0.0
 44
0.0
 50
0.0
 51
0.0
 71
               0
 72
             100
 73
               1
 74
               1
 75
               0
 76
               0
 77
               0
 78
               0
  0
ENDTAB
  0
TABLE
  2
LTYPE
 70
              26
  0
LTYPE
  2
CONTINUOUS
 70
               0
  3
Solid line
 72
              65
 73
               0
 40
0.0
  0
LTYPE
  2
HIDDENX2
 70
               0
  3
CADPAC FUSION LINETYPE
 72
              65
 73
               2
 40
80.0
 49
60.0
 49
-20.0
  0
LTYPE
  2
HIDDEN
 70
               0
  3
CADPAC FUSION LINETYPE
 72
              65
 73
               2
 40
60.0
 49
40.0
 49
-20.0
  0
LTYPE
  2
HIDDEN2
 70
               0
  3
CADPAC FUSION LINETYPE
 72
              65
 73
               2
 40
50.0
 49
30.0
 49
-20.0
  0
LTYPE
  2
DASHED
 70
               0
  3
CADPAC FUSION LINETYPE
 72
              65
 73
               2
 40
60.0
 49
40.0
 49
-20.0
  0
LTYPE
  2
DASHED2
 70
               0
  3
CADPAC FUSION LINETYPE
 72
              65
 73
               2
 40
45.0
 49
30.0
 49
-15.0
  0
LTYPE
  2
DASHEDX2
 70
               0
  3
CADPAC FUSION LINETYPE
 72
              65
 73
               2
 40
90.0
 49
60.0
 49
-30.0
  0
LTYPE
  2
DOTX2
 70
               0
  3
CADPAC FUSION LINETYPE
 72
              65
 73
               2
 40
25.0
 49
0.0
 49
-25.0
  0
LTYPE
  2
DOT
 70
               0
  3
CADPAC FUSION LINETYPE
 72
              65
 73
               2
 40
20.0
 49
0.0
 49
-20.0
  0
LTYPE
  2
DOTS
 70
               0
  3
CADPAC FUSION LINETYPE
 72
              65
 73
               2
 40
20.0
 49
0.0
 49
-20.0
  0
LTYPE
  2
DOT2
 70
               0
  3
CADPAC FUSION LINETYPE
 72
              65
 73
               2
 40
15.0
 49
0.0
 49
-15.0
  0
LTYPE
  2
CENTERX2
 70
               0
  3
CADPAC FUSION LINETYPE
 72
              65
 73
               4
 40
120.0
 49
50.0
 49
-25.0
 49
20.0
 49
-25.0
  0
LTYPE
  2
CENTER
 70
               0
  3
CADPAC FUSION LINETYPE
 72
              65
 73
               4
 40
92.0
 49
40.0
 49
-20.0
 49
12.0
 49
-20.0
  0
LTYPE
  2
CENTER2
 70
               0
  3
CADPAC FUSION LINETYPE
 72
              65
 73
               4
 40
64.0
 49
30.0
 49
-15.0
 49
4.0
 49
-15.0
  0
LTYPE
  2
DASHDOTX2
 70
               0
  3
CADPAC FUSION LINETYPE
 72
              65
 73
               4
 40
100.0
 49
50.0
 49
-25.0
 49
0.0
 49
-25.0
  0
LTYPE
  2
DASHDOT
 70
               0
  3
CADPAC FUSION LINETYPE
 72
              65
 73
               4
 40
80.0
 49
40.0
 49
-20.0
 49
0.0
 49
-20.0
  0
LTYPE
  2
DASHDOT2
 70
               0
  3
CADPAC FUSION LINETYPE
 72
              65
 73
               4
 40
60.0
 49
30.0
 49
-15.0
 49
0.0
 49
-15.0
  0
LTYPE
  2
DIVIDEX2
 70
               0
  3
CADPAC FUSION LINETYPE
 72
              65
 73
               6
 40
125.0
 49
50.0
 49
-25.0
 49
0.0
 49
-25.0
 49
0.0
 49
-25.0
  0
LTYPE
  2
DIVIDE
 70
               0
  3
CADPAC FUSION LINETYPE
 72
              65
 73
               6
 40
100.0
 49
40.0
 49
-20.0
 49
0.0
 49
-20.0
 49
0.0
 49
-20.0
  0
LTYPE
  2
DIVIDE2
 70
               0
  3
CADPAC FUSION LINETYPE
 72
              65
 73
               6
 40
75.0
 49
30.0
 49
-15.0
 49
0.0
 49
-15.0
 49
0.0
 49
-15.0
  0
LTYPE
  2
BORDERX2
 70
               0
  3
CADPAC FUSION LINETYPE
 72
              65
 73
               6
 40
175.0
 49
50.0
 49
-25.0
 49
50.0
 49
-25.0
 49
0.0
 49
-25.0
  0
LTYPE
  2
BORDER
 70
               0
  3
CADPAC FUSION LINETYPE
 72
              65
 73
               6
 40
140.0
 49
40.0
 49
-20.0
 49
40.0
 49
-20.0
 49
0.0
 49
-20.0
  0
LTYPE
  2
BORDER2
 70
               0
  3
CADPAC FUSION LINETYPE
 72
              65
 73
               6
 40
105.0
 49
30.0
 49
-15.0
 49
30.0
 49
-15.0
 49
0.0
 49
-15.0
  0
LTYPE
  2
PHANTOMX2
 70
               0
  3
CADPAC FUSION LINETYPE
 72
              65
 73
               6
 40
150.0
 49
50.0
 49
-20.0
 49
20.0
 49
-20.0
 49
20.0
 49
-20.0
  0
LTYPE
  2
PHANTOM
 70
               0
  3
CADPAC FUSION LINETYPE
 72
              65
 73
               6
 40
124.0
 49
40.0
 49
-20.0
 49
12.0
 49
-20.0
 49
12.0
 49
-20.0
  0
LTYPE
  2
PHANTOM2
 70
               0
  3
CADPAC FUSION LINETYPE
 72
              65
 73
               6
 40
106.0
 49
30.0
 49
-20.0
 49
8.0
 49
-20.0
 49
8.0
 49
-20.0
  0
ENDTAB
  0
TABLE
  2
LAYER
 70
             256
  0
LAYER
  2
0
 70
               0
 62
               7
  6
CONTINUOUS
  0
LAYER
  2
LAYER001
 70
               0
 62
               7
  6
CONTINUOUS
  0
LAYER
  2
LAYER002
 70
               0
 62
               7
  6
CONTINUOUS
  0
LAYER
  2
LAYER003
 70
               0
 62
               7
  6
CONTINUOUS
  0
LAYER
  2
LAYER004
 70
               0
 62
               7
  6
CONTINUOUS
  0
LAYER
  2
LAYER005
 70
               0
 62
               7
  6
CONTINUOUS
  0
LAYER
  2
LAYER006
 70
               0
 62
               7
  6
CONTINUOUS
  0
LAYER
  2
LAYER007
 70
               0
 62
               7
  6
CONTINUOUS
  0
LAYER
  2
LAYER008
 70
               0
 62
               7
  6
CONTINUOUS
  0
LAYER
  2
LAYER009
 70
               0
 62
               7
  6
CONTINUOUS
  0
LAYER
  2
LAYER010
 70
               0
 62
               7
  6
CONTINUOUS
  0
LAYER
  2
LAYER011
 70
               0
 62
               7
  6
CONTINUOUS
  0
LAYER
  2
LAYER012
 70
               0
 62
               7
  6
CONTINUOUS
  0
LAYER
  2
LAYER013
 70
               0
 62
               7
  6
CONTINUOUS
  0
LAYER
  2
LAYER014
 70
               0
 62
               7
  6
CONTINUOUS
  0
LAYER
  2
LAYER015
 70
               0
 62
               7
  6
CONTINUOUS
  0
LAYER
  2
LAYER016
 70
               0
 62
               7
  6
CONTINUOUS
  0
LAYER
  2
LAYER017
 70
               0
 62
               7
  6
CONTINUOUS
  0
LAYER
  2
LAYER018
 70
               0
 62
               7
  6
CONTINUOUS
  0
LAYER
  2
LAYER019
 70
               0
 62
               7
  6
CONTINUOUS
  0
LAYER
  2
LAYER020
 70
               0
 62
               7
  6
CONTINUOUS
  0
LAYER
  2
LAYER021
 70
               0
 62
               7
  6
CONTINUOUS
  0
LAYER
  2
LAYER022
 70
               0
 62
               7
  6
CONTINUOUS
  0
LAYER
  2
LAYER023
 70
               0
 62
               7
  6
CONTINUOUS
  0
LAYER
  2
LAYER024
 70
               0
 62
               7
  6
CONTINUOUS
  0
LAYER
  2
LAYER025
 70
               0
 62
               7
  6
CONTINUOUS
  0
LAYER
  2
LAYER026
 70
               0
 62
               7
  6
CONTINUOUS
  0
LAYER
  2
LAYER027
 70
               0
 62
               7
  6
CONTINUOUS
  0
LAYER
  2
LAYER028
 70
               0
 62
               7
  6
CONTINUOUS
  0
LAYER
  2
LAYER029
 70
               0
 62
               7
  6
CONTINUOUS
  0
LAYER
  2
LAYER030
 70
               0
 62
               7
  6
CONTINUOUS
  0
LAYER
  2
LAYER031
 70
               0
 62
               7
  6
CONTINUOUS
  0
LAYER
  2
LAYER032
 70
               0
 62
               7
  6
CONTINUOUS
  0
LAYER
  2
LAYER033
 70
               0
 62
               7
  6
CONTINUOUS
  0
LAYER
  2
LAYER034
 70
               0
 62
               7
  6
CONTINUOUS
  0
LAYER
  2
LAYER035
 70
               0
 62
               7
  6
CONTINUOUS
  0
LAYER
  2
LAYER036
 70
               0
 62
               7
  6
CONTINUOUS
  0
LAYER
  2
LAYER037
 70
               0
 62
               7
  6
CONTINUOUS
  0
LAYER
  2
LAYER038
 70
               0
 62
               7
  6
CONTINUOUS
  0
LAYER
  2
LAYER039
 70
               0
 62
               7
  6
CONTINUOUS
  0
LAYER
  2
LAYER040
 70
               0
 62
               7
  6
CONTINUOUS
  0
LAYER
  2
LAYER041
 70
               0
 62
               7
  6
CONTINUOUS
  0
LAYER
  2
LAYER042
 70
               0
 62
               7
  6
CONTINUOUS
  0
LAYER
  2
LAYER043
 70
               0
 62
               7
  6
CONTINUOUS
  0
LAYER
  2
LAYER044
 70
               0
 62
               7
  6
CONTINUOUS
  0
LAYER
  2
LAYER045
 70
               0
 62
               7
  6
CONTINUOUS
  0
LAYER
  2
LAYER046
 70
               0
 62
               7
  6
CONTINUOUS
  0
LAYER
  2
LAYER047
 70
               0
 62
               7
  6
CONTINUOUS
  0
LAYER
  2
LAYER048
 70
               0
 62
               7
  6
CONTINUOUS
  0
LAYER
  2
LAYER049
 70
               0
 62
               7
  6
CONTINUOUS
  0
LAYER
  2
LAYER050
 70
               0
 62
               7
  6
CONTINUOUS
  0
LAYER
  2
LAYER051
 70
               0
 62
               7
  6
CONTINUOUS
  0
LAYER
  2
LAYER052
 70
               0
 62
               7
  6
CONTINUOUS
  0
LAYER
  2
LAYER053
 70
               0
 62
               7
  6
CONTINUOUS
  0
LAYER
  2
LAYER054
 70
               0
 62
               7
  6
CONTINUOUS
  0
LAYER
  2
LAYER055
 70
               0
 62
               7
  6
CONTINUOUS
  0
LAYER
  2
LAYER056
 70
               0
 62
               7
  6
CONTINUOUS
  0
LAYER
  2
LAYER057
 70
               0
 62
               7
  6
CONTINUOUS
  0
LAYER
  2
LAYER058
 70
               0
 62
               7
  6
CONTINUOUS
  0
LAYER
  2
LAYER059
 70
               0
 62
               7
  6
CONTINUOUS
  0
LAYER
  2
LAYER060
 70
               0
 62
               7
  6
CONTINUOUS
  0
LAYER
  2
LAYER061
 70
               0
 62
               7
  6
CONTINUOUS
  0
LAYER
  2
LAYER062
 70
               0
 62
               7
  6
CONTINUOUS
  0
LAYER
  2
LAYER063
 70
               0
 62
               7
  6
CONTINUOUS
  0
LAYER
  2
LAYER064
 70
               0
 62
               7
  6
CONTINUOUS
  0
LAYER
  2
LAYER065
 70
               0
 62
               7
  6
CONTINUOUS
  0
LAYER
  2
LAYER066
 70
               0
 62
               7
  6
CONTINUOUS
  0
LAYER
  2
LAYER067
 70
               0
 62
               7
  6
CONTINUOUS
  0
LAYER
  2
LAYER068
 70
               0
 62
               7
  6
CONTINUOUS
  0
LAYER
  2
LAYER069
 70
               0
 62
               7
  6
CONTINUOUS
  0
LAYER
  2
LAYER070
 70
               0
 62
               7
  6
CONTINUOUS
  0
LAYER
  2
LAYER071
 70
               0
 62
               7
  6
CONTINUOUS
  0
LAYER
  2
LAYER072
 70
               0
 62
               7
  6
CONTINUOUS
  0
LAYER
  2
LAYER073
 70
               0
 62
               7
  6
CONTINUOUS
  0
LAYER
  2
LAYER074
 70
               0
 62
               7
  6
CONTINUOUS
  0
LAYER
  2
LAYER075
 70
               0
 62
               7
  6
CONTINUOUS
  0
LAYER
  2
LAYER076
 70
               0
 62
               7
  6
CONTINUOUS
  0
LAYER
  2
LAYER077
 70
               0
 62
               7
  6
CONTINUOUS
  0
LAYER
  2
LAYER078
 70
               0
 62
               7
  6
CONTINUOUS
  0
LAYER
  2
LAYER079
 70
               0
 62
               7
  6
CONTINUOUS
  0
LAYER
  2
LAYER080
 70
               0
 62
               7
  6
CONTINUOUS
  0
LAYER
  2
LAYER081
 70
               0
 62
               7
  6
CONTINUOUS
  0
LAYER
  2
LAYER082
 70
               0
 62
               7
  6
CONTINUOUS
  0
LAYER
  2
LAYER083
 70
               0
 62
               7
  6
CONTINUOUS
  0
LAYER
  2
LAYER084
 70
               0
 62
               7
  6
CONTINUOUS
  0
LAYER
  2
LAYER085
 70
               0
 62
               7
  6
CONTINUOUS
  0
LAYER
  2
LAYER086
 70
               0
 62
               7
  6
CONTINUOUS
  0
LAYER
  2
LAYER087
 70
               0
 62
               7
  6
CONTINUOUS
  0
LAYER
  2
LAYER088
 70
               0
 62
               7
  6
CONTINUOUS
  0
LAYER
  2
LAYER089
 70
               0
 62
               7
  6
CONTINUOUS
  0
LAYER
  2
LAYER090
 70
               0
 62
               7
  6
CONTINUOUS
  0
LAYER
  2
LAYER091
 70
               0
 62
               7
  6
CONTINUOUS
  0
LAYER
  2
LAYER092
 70
               0
 62
               7
  6
CONTINUOUS
  0
LAYER
  2
LAYER093
 70
               0
 62
               7
  6
CONTINUOUS
  0
LAYER
  2
LAYER094
 70
               0
 62
               7
  6
CONTINUOUS
  0
LAYER
  2
LAYER095
 70
               0
 62
               7
  6
CONTINUOUS
  0
LAYER
  2
LAYER096
 70
               0
 62
               7
  6
CONTINUOUS
  0
LAYER
  2
LAYER097
 70
               0
 62
               7
  6
CONTINUOUS
  0
LAYER
  2
LAYER098
 70
               0
 62
               7
  6
CONTINUOUS
  0
LAYER
  2
LAYER099
 70
               0
 62
               7
  6
CONTINUOUS
  0
LAYER
  2
LAYER100
 70
               0
 62
               7
  6
CONTINUOUS
  0
LAYER
  2
LAYER101
 70
               0
 62
               7
  6
CONTINUOUS
  0
LAYER
  2
LAYER102
 70
               0
 62
               7
  6
CONTINUOUS
  0
LAYER
  2
LAYER103
 70
               0
 62
               7
  6
CONTINUOUS
  0
LAYER
  2
LAYER104
 70
               0
 62
               7
  6
CONTINUOUS
  0
LAYER
  2
LAYER105
 70
               0
 62
               7
  6
CONTINUOUS
  0
LAYER
  2
LAYER106
 70
               0
 62
               7
  6
CONTINUOUS
  0
LAYER
  2
LAYER107
 70
               0
 62
               7
  6
CONTINUOUS
  0
LAYER
  2
LAYER108
 70
               0
 62
               7
  6
CONTINUOUS
  0
LAYER
  2
LAYER109
 70
               0
 62
               7
  6
CONTINUOUS
  0
LAYER
  2
LAYER110
 70
               0
 62
               7
  6
CONTINUOUS
  0
LAYER
  2
LAYER111
 70
               0
 62
               7
  6
CONTINUOUS
  0
LAYER
  2
LAYER112
 70
               0
 62
               7
  6
CONTINUOUS
  0
LAYER
  2
LAYER113
 70
               0
 62
               7
  6
CONTINUOUS
  0
LAYER
  2
LAYER114
 70
               0
 62
               7
  6
CONTINUOUS
  0
LAYER
  2
LAYER115
 70
               0
 62
               7
  6
CONTINUOUS
  0
LAYER
  2
LAYER116
 70
               0
 62
               7
  6
CONTINUOUS
  0
LAYER
  2
LAYER117
 70
               0
 62
               7
  6
CONTINUOUS
  0
LAYER
  2
LAYER118
 70
               0
 62
               7
  6
CONTINUOUS
  0
LAYER
  2
LAYER119
 70
               0
 62
               7
  6
CONTINUOUS
  0
LAYER
  2
LAYER120
 70
               0
 62
               7
  6
CONTINUOUS
  0
LAYER
  2
LAYER121
 70
               0
 62
               7
  6
CONTINUOUS
  0
LAYER
  2
LAYER122
 70
               0
 62
               7
  6
CONTINUOUS
  0
LAYER
  2
LAYER123
 70
               0
 62
               7
  6
CONTINUOUS
  0
LAYER
  2
LAYER124
 70
               0
 62
               7
  6
CONTINUOUS
  0
LAYER
  2
LAYER125
 70
               0
 62
               7
  6
CONTINUOUS
  0
LAYER
  2
LAYER126
 70
               0
 62
               7
  6
CONTINUOUS
  0
LAYER
  2
LAYER127
 70
               0
 62
               7
  6
CONTINUOUS
  0
LAYER
  2
LAYER128
 70
               0
 62
               7
  6
CONTINUOUS
  0
LAYER
  2
LAYER129
 70
               0
 62
               7
  6
CONTINUOUS
  0
LAYER
  2
LAYER130
 70
               0
 62
               7
  6
CONTINUOUS
  0
LAYER
  2
LAYER131
 70
               0
 62
               7
  6
CONTINUOUS
  0
LAYER
  2
LAYER132
 70
               0
 62
               7
  6
CONTINUOUS
  0
LAYER
  2
LAYER133
 70
               0
 62
               7
  6
CONTINUOUS
  0
LAYER
  2
LAYER134
 70
               0
 62
               7
  6
CONTINUOUS
  0
LAYER
  2
LAYER135
 70
               0
 62
               7
  6
CONTINUOUS
  0
LAYER
  2
LAYER136
 70
               0
 62
               7
  6
CONTINUOUS
  0
LAYER
  2
LAYER137
 70
               0
 62
               7
  6
CONTINUOUS
  0
LAYER
  2
LAYER138
 70
               0
 62
               7
  6
CONTINUOUS
  0
LAYER
  2
LAYER139
 70
               0
 62
               7
  6
CONTINUOUS
  0
LAYER
  2
LAYER140
 70
               0
 62
               7
  6
CONTINUOUS
  0
LAYER
  2
LAYER141
 70
               0
 62
               7
  6
CONTINUOUS
  0
LAYER
  2
LAYER142
 70
               0
 62
               7
  6
CONTINUOUS
  0
LAYER
  2
LAYER143
 70
               0
 62
               7
  6
CONTINUOUS
  0
LAYER
  2
LAYER144
 70
               0
 62
               7
  6
CONTINUOUS
  0
LAYER
  2
LAYER145
 70
               0
 62
               7
  6
CONTINUOUS
  0
LAYER
  2
LAYER146
 70
               0
 62
               7
  6
CONTINUOUS
  0
LAYER
  2
LAYER147
 70
               0
 62
               7
  6
CONTINUOUS
  0
LAYER
  2
LAYER148
 70
               0
 62
               7
  6
CONTINUOUS
  0
LAYER
  2
LAYER149
 70
               0
 62
               7
  6
CONTINUOUS
  0
LAYER
  2
LAYER150
 70
               0
 62
               7
  6
CONTINUOUS
  0
LAYER
  2
LAYER151
 70
               0
 62
               7
  6
CONTINUOUS
  0
LAYER
  2
LAYER152
 70
               0
 62
               7
  6
CONTINUOUS
  0
LAYER
  2
LAYER153
 70
               0
 62
               7
  6
CONTINUOUS
  0
LAYER
  2
LAYER154
 70
               0
 62
               7
  6
CONTINUOUS
  0
LAYER
  2
LAYER155
 70
               0
 62
               7
  6
CONTINUOUS
  0
LAYER
  2
LAYER156
 70
               0
 62
               7
  6
CONTINUOUS
  0
LAYER
  2
LAYER157
 70
               0
 62
               7
  6
CONTINUOUS
  0
LAYER
  2
LAYER158
 70
               0
 62
               7
  6
CONTINUOUS
  0
LAYER
  2
LAYER159
 70
               0
 62
               7
  6
CONTINUOUS
  0
LAYER
  2
LAYER160
 70
               0
 62
               7
  6
CONTINUOUS
  0
LAYER
  2
LAYER161
 70
               0
 62
               7
  6
CONTINUOUS
  0
LAYER
  2
LAYER162
 70
               0
 62
               7
  6
CONTINUOUS
  0
LAYER
  2
LAYER163
 70
               0
 62
               7
  6
CONTINUOUS
  0
LAYER
  2
LAYER164
 70
               0
 62
               7
  6
CONTINUOUS
  0
LAYER
  2
LAYER165
 70
               0
 62
               7
  6
CONTINUOUS
  0
LAYER
  2
LAYER166
 70
               0
 62
               7
  6
CONTINUOUS
  0
LAYER
  2
LAYER167
 70
               0
 62
               7
  6
CONTINUOUS
  0
LAYER
  2
LAYER168
 70
               0
 62
               7
  6
CONTINUOUS
  0
LAYER
  2
LAYER169
 70
               0
 62
               7
  6
CONTINUOUS
  0
LAYER
  2
LAYER170
 70
               0
 62
               7
  6
CONTINUOUS
  0
LAYER
  2
LAYER171
 70
               0
 62
               7
  6
CONTINUOUS
  0
LAYER
  2
LAYER172
 70
               0
 62
               7
  6
CONTINUOUS
  0
LAYER
  2
LAYER173
 70
               0
 62
               7
  6
CONTINUOUS
  0
LAYER
  2
LAYER174
 70
               0
 62
               7
  6
CONTINUOUS
  0
LAYER
  2
LAYER175
 70
               0
 62
               7
  6
CONTINUOUS
  0
LAYER
  2
LAYER176
 70
               0
 62
               7
  6
CONTINUOUS
  0
LAYER
  2
LAYER177
 70
               0
 62
               7
  6
CONTINUOUS
  0
LAYER
  2
LAYER178
 70
               0
 62
               7
  6
CONTINUOUS
  0
LAYER
  2
LAYER179
 70
               0
 62
               7
  6
CONTINUOUS
  0
LAYER
  2
LAYER180
 70
               0
 62
               7
  6
CONTINUOUS
  0
LAYER
  2
LAYER181
 70
               0
 62
               7
  6
CONTINUOUS
  0
LAYER
  2
LAYER182
 70
               0
 62
               7
  6
CONTINUOUS
  0
LAYER
  2
LAYER183
 70
               0
 62
               7
  6
CONTINUOUS
  0
LAYER
  2
LAYER184
 70
               0
 62
               7
  6
CONTINUOUS
  0
LAYER
  2
LAYER185
 70
               0
 62
               7
  6
CONTINUOUS
  0
LAYER
  2
LAYER186
 70
               0
 62
               7
  6
CONTINUOUS
  0
LAYER
  2
LAYER187
 70
               0
 62
               7
  6
CONTINUOUS
  0
LAYER
  2
LAYER188
 70
               0
 62
               7
  6
CONTINUOUS
  0
LAYER
  2
LAYER189
 70
               0
 62
               7
  6
CONTINUOUS
  0
LAYER
  2
LAYER190
 70
               0
 62
               7
  6
CONTINUOUS
  0
LAYER
  2
LAYER191
 70
               0
 62
               7
  6
CONTINUOUS
  0
LAYER
  2
LAYER192
 70
               0
 62
               7
  6
CONTINUOUS
  0
LAYER
  2
LAYER193
 70
               0
 62
               7
  6
CONTINUOUS
  0
LAYER
  2
LAYER194
 70
               0
 62
               7
  6
CONTINUOUS
  0
LAYER
  2
LAYER195
 70
               0
 62
               7
  6
CONTINUOUS
  0
LAYER
  2
LAYER196
 70
               0
 62
               7
  6
CONTINUOUS
  0
LAYER
  2
LAYER197
 70
               0
 62
               7
  6
CONTINUOUS
  0
LAYER
  2
LAYER198
 70
               0
 62
               7
  6
CONTINUOUS
  0
LAYER
  2
LAYER199
 70
               0
 62
               7
  6
CONTINUOUS
  0
LAYER
  2
LAYER200
 70
               0
 62
               7
  6
CONTINUOUS
  0
LAYER
  2
LAYER201
 70
               0
 62
               7
  6
CONTINUOUS
  0
LAYER
  2
LAYER202
 70
               0
 62
               7
  6
CONTINUOUS
  0
LAYER
  2
LAYER203
 70
               0
 62
               7
  6
CONTINUOUS
  0
LAYER
  2
LAYER204
 70
               0
 62
               7
  6
CONTINUOUS
  0
LAYER
  2
LAYER205
 70
               0
 62
               7
  6
CONTINUOUS
  0
LAYER
  2
LAYER206
 70
               0
 62
               7
  6
CONTINUOUS
  0
LAYER
  2
LAYER207
 70
               0
 62
               7
  6
CONTINUOUS
  0
LAYER
  2
LAYER208
 70
               0
 62
               7
  6
CONTINUOUS
  0
LAYER
  2
LAYER209
 70
               0
 62
               7
  6
CONTINUOUS
  0
LAYER
  2
LAYER210
 70
               0
 62
               7
  6
CONTINUOUS
  0
LAYER
  2
LAYER211
 70
               0
 62
               7
  6
CONTINUOUS
  0
LAYER
  2
LAYER212
 70
               0
 62
               7
  6
CONTINUOUS
  0
LAYER
  2
LAYER213
 70
               0
 62
               7
  6
CONTINUOUS
  0
LAYER
  2
LAYER214
 70
               0
 62
               7
  6
CONTINUOUS
  0
LAYER
  2
LAYER215
 70
               0
 62
               7
  6
CONTINUOUS
  0
LAYER
  2
LAYER216
 70
               0
 62
               7
  6
CONTINUOUS
  0
LAYER
  2
LAYER217
 70
               0
 62
               7
  6
CONTINUOUS
  0
LAYER
  2
LAYER218
 70
               0
 62
               7
  6
CONTINUOUS
  0
LAYER
  2
LAYER219
 70
               0
 62
               7
  6
CONTINUOUS
  0
LAYER
  2
LAYER220
 70
               0
 62
               7
  6
CONTINUOUS
  0
LAYER
  2
LAYER221
 70
               0
 62
               7
  6
CONTINUOUS
  0
LAYER
  2
LAYER222
 70
               0
 62
               7
  6
CONTINUOUS
  0
LAYER
  2
LAYER223
 70
               0
 62
               7
  6
CONTINUOUS
  0
LAYER
  2
LAYER224
 70
               0
 62
               7
  6
CONTINUOUS
  0
LAYER
  2
LAYER225
 70
               0
 62
               7
  6
CONTINUOUS
  0
LAYER
  2
LAYER226
 70
               0
 62
               7
  6
CONTINUOUS
  0
LAYER
  2
LAYER227
 70
               0
 62
               7
  6
CONTINUOUS
  0
LAYER
  2
LAYER228
 70
               0
 62
               7
  6
CONTINUOUS
  0
LAYER
  2
LAYER229
 70
               0
 62
               7
  6
CONTINUOUS
  0
LAYER
  2
LAYER230
 70
               0
 62
               7
  6
CONTINUOUS
  0
LAYER
  2
LAYER231
 70
               0
 62
               7
  6
CONTINUOUS
  0
LAYER
  2
LAYER232
 70
               0
 62
               7
  6
CONTINUOUS
  0
LAYER
  2
LAYER233
 70
               0
 62
               7
  6
CONTINUOUS
  0
LAYER
  2
LAYER234
 70
               0
 62
               7
  6
CONTINUOUS
  0
LAYER
  2
LAYER235
 70
               0
 62
               7
  6
CONTINUOUS
  0
LAYER
  2
LAYER236
 70
               0
 62
               7
  6
CONTINUOUS
  0
LAYER
  2
LAYER237
 70
               0
 62
               7
  6
CONTINUOUS
  0
LAYER
  2
LAYER238
 70
               0
 62
               7
  6
CONTINUOUS
  0
LAYER
  2
LAYER239
 70
               0
 62
               7
  6
CONTINUOUS
  0
LAYER
  2
LAYER240
 70
               0
 62
               7
  6
CONTINUOUS
  0
LAYER
  2
LAYER241
 70
               0
 62
               7
  6
CONTINUOUS
  0
LAYER
  2
LAYER242
 70
               0
 62
               7
  6
CONTINUOUS
  0
LAYER
  2
LAYER243
 70
               0
 62
               7
  6
CONTINUOUS
  0
LAYER
  2
LAYER244
 70
               0
 62
               7
  6
CONTINUOUS
  0
LAYER
  2
LAYER245
 70
               0
 62
               7
  6
CONTINUOUS
  0
LAYER
  2
LAYER246
 70
               0
 62
               7
  6
CONTINUOUS
  0
LAYER
  2
LAYER247
 70
               0
 62
               7
  6
CONTINUOUS
  0
LAYER
  2
LAYER248
 70
               0
 62
               7
  6
CONTINUOUS
  0
LAYER
  2
LAYER249
 70
               0
 62
               7
  6
CONTINUOUS
  0
LAYER
  2
LAYER250
 70
               0
 62
               7
  6
CONTINUOUS
  0
LAYER
  2
LAYER251
 70
               0
 62
               7
  6
CONTINUOUS
  0
LAYER
  2
LAYER252
 70
               0
 62
               7
  6
CONTINUOUS
  0
LAYER
  2
LAYER253
 70
               0
 62
               7
  6
CONTINUOUS
  0
LAYER
  2
LAYER254
 70
               0
 62
               7
  6
CONTINUOUS
  0
LAYER
  2
LAYER255
 70
               0
 62
               7
  6
CONTINUOUS
  0
ENDTAB
  0
TABLE
  2
STYLE
 70
               1
  0
STYLE
  2
STANDARD
 70
               0
 40
0.0
 41
1.0
 50
0.0
 71
               0
 42
0.0
  3
txt
  4

  0
ENDTAB
  0
TABLE
  2
VIEW
 70
               0
  0
VIEW
  2
QQQQ
 70
               0
 40
1063.1510444592739
 10
139.15157480314915
 20
-183.33644144489574
 41
1016.0474999999988
 11
0.0
 21
0.0
 31
1.0
 12
100.0
 22
100.0
 32
0.0
 42
50.0
 43
0.0
 44
0.0
 50
0.0
 71
               0
  0
ENDTAB
  0
TABLE
  2
UCS
 70
               0
  0
ENDTAB
  0
TABLE
  2
APPID
 70
               1
  0
APPID
  2
ACAD
 70
               0
  0
ENDTAB
  0
TABLE
  2
DIMSTYLE
 70
               1
  0
DIMSTYLE
  2
STANDARD
 70
               0
  3

  4

  5

  6

  7

 40
1.0
 41
0.18
 42
0.0625
 43
0.38
 44
0.18
 45
0.0
 46
0.0
 47
0.0
 48
0.0
140
0.18
141
0.09
142
0.0
143
25.399999999999999
144
1.0
145
0.0
146
1.0
147
0.09
 71
               0
 72
               0
 73
               1
 74
               1
 75
               0
 76
               0
 77
               0
 78
               0
170
               0
171
               2
172
               0
173
               0
174
               0
175
               0
176
               0
177
               0
178
               0
  0
ENDTAB
  0
ENDSEC
  0
SECTION
  2
BLOCKS
  0
ENDSEC
  0
SECTION
  2
ENTITIES
  0
LINE
  8
0
  6
DASHDOT
 62
               4
  5
136
 10
-320.59842519685031
 20
202.0997375328084
 30
0.0
 11
54.386100479847585
 21
202.0997375328084
 31
0.0
  0
LINE
  8
0
  6
DASHDOT
 62
               4
  5
137
 10
-212.59842519685037
 20
297.72737957740014
 30
0.0
 11
-212.59842519685037
 21
106.47209548821667
 31
0.0
  0
LINE
  8
0
  6
DASHDOT
 62
               4
  5
138
 10
-233.3018429585442
 20
-539.90026246719162
 30
0.0
 11
54.359352793036706
 21
-539.90026246719162
 31
0.0
  0
ARC
  8
0
  6
DASHDOT
 62
               4
  5
139
 10
-43.598425196850272
 20
-370.90026246719162
 30
0.0
 40
169.0
 50
179.99999999993119
 51
268.71324725135327
  0
LINE
  8
0
  6
DASHDOT
 62
               4
  5
13A
 10
-212.59842519685037
 20
-279.90583483757962
 30
0.0
 11
-212.59842519685037
 21
-603.8749307605226
 31
0.0
  0
LINE
  8
0
  6
DASHDOT
 62
               4
  5
13B
 10
487.40157480314963
 20
-279.90026246719162
 30
0.0
 11
487.40157480314963
 21
-664.40026246719162
 31
0.0
  0
LINE
  8
0
  6
DASHDOT
 62
               4
  5
13C
 10
375.90157480315065
 20
-539.90026246719162
 30
0.0
 11
598.90157480314861
 21
-539.90026246719162
 31
0.0
  0
LINE
  8
0
  6
DASHED
 62
               4
  5
13D
 10
-33.598425196850371
 20
272.09973753280838
 30
0.0
 11
-33.598425196850371
 21
132.0997375328084
 31
0.0
  0
LINE
  8
0
  6
DASHED
 62
               4
  5
13E
 10
-269.59842519685026
 20
-352.90026246719157
 30
0.0
 11
-155.59842519685049
 21
-352.90026246719162
 31
0.0
  0
LINE
  8
0
  6
DASHED
 62
               4
  5
13F
 10
-33.598425196850371
 20
-604.17514398377921
 30
0.0
 11
-33.598425196850371
 21
-473.72490701695466
 31
0.0
  0
LINE
  8
0
  6
DASHED
 62
               4
  5
140
 10
430.40157480314963
 20
-352.90026246719162
 30
0.0
 11
544.40157480314963
 21
-352.90026246719162
 31
0.0
  0
ARC
  8
0
  6
CONTINUOUS
 62
               3
  5
141
 10
-212.59842519685037
 20
202.0997375328084
 30
0.0
 40
75.499999999999986
 50
213.32931837464614
 51
266.6706816251704
  0
ARC
  8
0
  6
CONTINUOUS
 62
               3
  5
142
 10
-288.59842519685031
 20
202.0997375328084
 30
0.0
 40
12.0
 50
146.67068162521619
 51
213.32931837464628
  0
LINE
  8
0
  6
CONTINUOUS
 62
               3
  5
143
 10
-298.6247409863239
 20
208.69314269931769
 30
0.0
 11
-275.68066203895569
 21
243.58324503876239
 31
0.0
  0
LINE
  8
0
  6
CONTINUOUS
 62
               3
  5
144
 10
-298.6247409863239
 20
195.50633236629912
 30
0.0
 11
-275.68066203895569
 21
160.61623002685442
 31
0.0
  0
ARC
  8
0
  6
CONTINUOUS
 62
               3
  5
145
 10
-174.59842519685026
 20
136.28180684519114
 30
0.0
 40
12.0
 50
266.6706816251704
 51
333.32931837460046
  0
LINE
  8
0
  6
CONTINUOUS
 62
               3
  5
146
 10
-175.29532367375396
 20
124.30206008188711
 30
0.0
 11
-216.98307811403623
 21
126.72716414702157
 31
0.0
  0
LINE
  8
0
  6
CONTINUOUS
 62
               3
  5
147
 10
-163.87521093047297
 20
130.89546524839639
 30
0.0
 11
-145.13153543755919
 21
168.21067165297555
 31
0.0
  0
ARC
  8
0
  6
CONTINUOUS
 62
               3
  5
148
 10
-174.59842519685026
 20
267.91766822042564
 30
0.0
 40
12.0
 50
26.670681625262063
 51
93.329318374692193
  0
LINE
  8
0
  6
CONTINUOUS
 62
               3
  5
149
 10
-163.87521093047297
 20
273.30400981722039
 30
0.0
 11
-145.13153543755919
 21
235.98880341264126
 31
0.0
  0
LINE
  8
0
  6
CONTINUOUS
 62
               3
  5
14A
 10
-175.29532367375396
 20
279.89741498372973
 30
0.0
 11
-216.98307811403623
 21
277.47231091859521
 31
0.0
  0
ARC
  8
0
  6
CONTINUOUS
 62
               3
  5
14B
 10
-212.59842519685037
 20
202.0997375328084
 30
0.0
 40
75.499999999999986
 50
93.329318374691937
 51
146.67068162521622
  0
ARC
  8
0
  6
CONTINUOUS
 62
               3
  5
14C
 10
-212.59842519685037
 20
202.0997375328084
 30
0.0
 40
75.499999999999986
 50
333.32931837460029
 51
386.67068162512379
  0
LINE
  8
0
  6
CONTINUOUS
 62
               3
  5
14D
 10
-163.01914366652056
 20
271.59973753280826
 30
0.0
 11
-38.613899520152032
 21
271.59973753280826
 31
0.0
  0
LINE
  8
0
  6
CONTINUOUS
 62
               3
  5
14E
 10
-163.01914366652056
 20
132.59973753280852
 30
0.0
 11
-38.613899520152032
 21
132.59973753280852
 31
0.0
  0
LINE
  8
0
  6
CONTINUOUS
 62
               3
  5
14F
 10
2.4015748031496287
 20
294.59973753280809
 30
0.0
 11
2.4015748031496287
 21
109.59973753280836
 31
0.0
  0
LINE
  8
0
  6
CONTINUOUS
 62
               3
  5
150
 10
-15.582950873548668
 20
109.59973753281284
 30
0.0
 11
2.4015748031496287
 21
109.59973753280836
 31
0.0
  0
LINE
  8
0
  6
CONTINUOUS
 62
               3
  5
151
 10
-15.582950873548668
 20
294.59973753280809
 30
0.0
 11
-15.582950873548654
 21
109.59973753280836
 31
0.0
  0
LINE
  8
0
  6
CONTINUOUS
 62
               3
  5
152
 10
-38.613899520152032
 20
124.59973753280836
 30
0.0
 11
-15.598425196850314
 21
124.5997375328084
 31
0.0
  0
LINE
  8
0
  6
CONTINUOUS
 62
               3
  5
153
 10
-38.613899520152032
 20
279.59973753280843
 30
0.0
 11
-15.598425196850314
 21
279.59973753280838
 31
0.0
  0
CIRCLE
  8
0
  6
CONTINUOUS
 62
               3
  5
154
 10
-212.59842519685037
 20
202.0997375328084
 30
0.0
 40
58.5
  0
LINE
  8
0
  6
CONTINUOUS
 62
               3
  5
155
 10
15.401574803149543
 20
109.59973753280833
 30
0.0
 11
34.401574803149629
 21
109.59973753280836
 31
0.0
  0
LINE
  8
0
  6
CONTINUOUS
 62
               3
  5
156
 10
-15.582950873548668
 20
294.59973753280775
 30
0.0
 11
2.4015748031496287
 21
294.59973753280809
 31
0.0
  0
LINE
  8
0
  6
CONTINUOUS
 62
               3
  5
157
 10
15.401574803149543
 20
294.59973753280804
 30
0.0
 11
34.401574803149629
 21
294.59973753280838
 31
0.0
  0
LINE
  8
0
  6
CONTINUOUS
 62
               3
  5
158
 10
15.401574803149543
 20
294.59973753280804
 30
0.0
 11
15.401574803149543
 21
109.59973753280833
 31
0.0
  0
LINE
  8
0
  6
CONTINUOUS
 62
               3
  5
159
 10
-15.582950873549166
 20
109.59973753280838
 30
0.0
 11
-15.582950873549166
 21
131.19973753280865
 31
0.0
  0
LINE
  8
0
  6
CONTINUOUS
 62
               3
  5
15A
 10
-15.582950873549166
 20
267.9997375328079
 30
0.0
 11
-15.582950873549166
 21
287.99973753280869
 31
0.0
  0
CIRCLE
  8
0
  6
CONTINUOUS
 62
               3
  5
15B
 10
-174.59842519685026
 20
267.91766822042564
 30
0.0
 40
8.2666666666666657
  0
CIRCLE
  8
0
  6
CONTINUOUS
 62
               3
  5
15C
 10
-174.59842519685026
 20
136.28180684519114
 30
0.0
 40
8.2666666666666657
  0
CIRCLE
  8
0
  6
CONTINUOUS
 62
               3
  5
15D
 10
-288.59842519685031
 20
202.0997375328084
 30
0.0
 40
8.2666666666666657
  0
LINE
  8
0
  6
CONTINUOUS
 62
               3
  5
15E
 10
-38.613899520152032
 20
279.59973753280843
 30
0.0
 11
-38.613899520152032
 21
124.59973753280836
 31
0.0
  0
LINE
  8
0
  6
CONTINUOUS
 62
               3
  5
15F
 10
2.4015748031496287
 20
283.09973753280838
 30
0.0
 11
15.401574803149543
 21
283.09973753280838
 31
0.0
  0
LINE
  8
0
  6
CONTINUOUS
 62
               3
  5
160
 10
15.401574803149543
 20
121.0997375328084
 30
0.0
 11
2.4015748031496287
 21
121.0997375328084
 31
0.0
  0
LINE
  8
0
  6
CONTINUOUS
 62
               3
  5
161
 10
34.401574803149629
 20
109.59973753280836
 30
0.0
 11
34.401574803149629
 21
294.59973753280838
 31
0.0
  0
LINE
  8
0
  6
CONTINUOUS
 62
               3
  5
162
 10
2.4015748031496287
 20
-449.90026246718787
 30
0.0
 11
2.4015748031498276
 21
-644.40026246719219
 31
0.0
  0
LINE
  8
0
  6
CONTINUOUS
 62
               3
  5
163
 10
-38.590485190064669
 20
-462.40026246719043
 30
0.0
 11
-15.590485190067483
 21
-462.40026246719367
 31
0.0
  0
LINE
  8
0
  6
CONTINUOUS
 62
               3
  5
164
 10
-38.590485190064669
 20
-617.40026246719481
 30
0.0
 11
-15.590485190075981
 21
-617.40026246718446
 31
0.0
  0
LINE
  8
0
  6
CONTINUOUS
 62
               3
  5
165
 10
-15.598425196851366
 20
-449.90026246719214
 30
0.0
 11
2.4015748031496287
 21
-449.90026246718787
 31
0.0
  0
LINE
  8
0
  6
CONTINUOUS
 62
               3
  5
166
 10
-15.598425196850172
 20
-644.40026246719628
 30
0.0
 11
2.4015748031498276
 21
-644.40026246719219
 31
0.0
  0
ARC
  8
0
  6
CONTINUOUS
 62
               3
  5
167
 10
-43.598425196850272
 20
-370.90026246719162
 30
0.0
 40
100.5
 50
178.81459326879536
 51
269.99999999989683
  0
ARC
  8
0
  6
CONTINUOUS
 62
               3
  5
168
 10
-157.07937973348066
 20
-368.82109016667982
 30
0.0
 40
13.0
 50
358.95035716797679
 51
399.03879260939374
  0
ARC
  8
0
  6
CONTINUOUS
 62
               3
  5
169
 10
-43.598425196850272
 20
-370.90026246719162
 30
0.0
 40
239.5
 50
179.99999999993119
 51
269.99999999989683
  0
LINE
  8
0
  6
CONTINUOUS
 62
               3
  5
16A
 10
-300.59842519685009
 20
-324.90026246719231
 30
0.0
 11
-300.59842519685009
 21
-339.9350706760406
 31
0.0
  0
LINE
  8
0
  6
CONTINUOUS
 62
               3
  5
16B
 10
-277.09842519685196
 20
-339.96766657161368
 30
0.0
 11
-277.09842519685026
 21
-357.48385460219254
 31
0.0
  0
ARC
  8
0
  6
CONTINUOUS
 62
               3
  5
16C
 10
-282.09842519685026
 20
-357.48385460219254
 30
0.0
 40
4.9999999999999982
 50
311.810314895658
 51
359.99999999986176
  0
ARC
  8
0
  6
CONTINUOUS
 62
               3
  5
16D
 10
-270.09842519685066
 20
-370.90026246719162
 30
0.0
 40
13.0
 50
131.81031489572672
 51
179.99999999993119
  0
LINE
  8
0
  6
CONTINUOUS
 62
               3
  5
16E
 10
-148.09842519685049
 20
-339.96766657161413
 30
0.0
 11
-148.09842519685049
 21
-357.48385460219288
 31
0.0
  0
ARC
  8
0
  6
CONTINUOUS
 62
               3
  5
16F
 10
-143.09842519685049
 20
-357.48385460219288
 30
0.0
 40
4.9999999999999982
 50
179.99999999993119
 51
219.0387926094632
  0
LINE
  8
0
  6
CONTINUOUS
 62
               3
  5
170
 10
-137.09842519685023
 20
-324.90026246719094
 30
0.0
 11
-137.09842519685012
 21
-339.93507067603883
 31
0.0
  0
LINE
  8
0
  6
CONTINUOUS
 62
               3
  5
171
 10
-300.59842519685009
 20
-339.9350706760406
 30
0.0
 11
-137.09842519685049
 21
-339.93507067603883
 31
0.0
  0
LINE
  8
0
  6
CONTINUOUS
 62
               3
  5
172
 10
-300.59842519685009
 20
-324.90026246719231
 30
0.0
 11
-137.09842519685066
 21
-324.90026246719094
 31
0.0
  0
LINE
  8
0
  6
CONTINUOUS
 62
               3
  5
173
 10
-283.12307415015675
 20
-370.90026246719162
 30
0.0
 11
-144.09842519685014
 21
-370.90026246719162
 31
0.0
  0
LINE
  8
0
  6
CONTINUOUS
 62
               3
  5
174
 10
-282.12307415015715
 20
-365.90026246719162
 30
0.0
 11
-144.43640201286371
 21
-365.90026246719162
 31
0.0
  0
LINE
  8
0
  6
CONTINUOUS
 62
               3
  5
175
 10
-15.598425196851366
 20
-449.90026246719214
 30
0.0
 11
-15.598425196850172
 21
-644.40026246719628
 31
0.0
  0
LINE
  8
0
  6
CONTINUOUS
 62
               3
  5
176
 10
15.359352793036649
 20
-458.90026246719174
 30
0.0
 11
2.4095148099352173
 21
-458.90026246719174
 31
0.0
  0
LINE
  8
0
  6
CONTINUOUS
 62
               3
  5
177
 10
15.359352793036649
 20
-620.90026246719162
 30
0.0
 11
2.409514809935331
 21
-620.90026246719162
 31
0.0
  0
LINE
  8
0
  6
CONTINUOUS
 62
               3
  5
178
 10
34.401574803149813
 20
-449.90026246719231
 30
0.0
 11
15.401574803149757
 21
-449.90026246719191
 31
0.0
  0
LINE
  8
0
  6
CONTINUOUS
 62
               3
  5
179
 10
34.401574803149813
 20
-644.40026246719219
 30
0.0
 11
15.401574803149757
 21
-644.40026246719185
 31
0.0
  0
LINE
  8
0
  6
CONTINUOUS
 62
               3
  5
17A
 10
15.401574803149757
 20
-449.90026246719191
 30
0.0
 11
15.401574803149757
 21
-644.40026246719185
 31
0.0
  0
LINE
  8
0
  6
CONTINUOUS
 62
               3
  5
17B
 10
34.401574803149813
 20
-644.40026246719219
 30
0.0
 11
34.401574803149813
 21
-449.90026246719231
 31
0.0
  0
LINE
  8
0
  6
CONTINUOUS
 62
               3
  5
17C
 10
-278.57377624354399
 20
-312.90026246719162
 30
0.0
 11
-278.57377624354399
 21
-324.90026246719219
 31
0.0
  0
LINE
  8
0
  6
CONTINUOUS
 62
               3
  5
17D
 10
-146.5737762435441
 20
-312.90026246719162
 30
0.0
 11
-146.5737762435441
 21
-324.90026246719106
 31
0.0
  0
LINE
  8
0
  6
CONTINUOUS
 62
               3
  5
17E
 10
-300.59842519685026
 20
-297.90026246719162
 30
0.0
 11
-137.09842519685026
 21
-297.90026246719162
 31
0.0
  0
LINE
  8
0
  6
CONTINUOUS
 62
               3
  5
17F
 10
-300.59842519685009
 20
-312.90026246719162
 30
0.0
 11
-137.09842519685026
 21
-312.90026246719162
 31
0.0
  0
LINE
  8
0
  6
CONTINUOUS
 62
               3
  5
180
 10
-137.09842519685074
 20
-312.90026246719162
 30
0.0
 11
-137.09842519685026
 21
-297.90026246719162
 31
0.0
  0
LINE
  8
0
  6
CONTINUOUS
 62
               3
  5
181
 10
-300.59842519685009
 20
-312.90026246719162
 30
0.0
 11
-300.59842519684997
 21
-297.90026246719162
 31
0.0
  0
LINE
  8
0
  6
CONTINUOUS
 62
               3
  5
182
 10
-38.590485190064669
 20
-462.40026246719043
 30
0.0
 11
-38.590485190064669
 21
-617.40026246719481
 31
0.0
  0
LINE
  8
0
  6
CONTINUOUS
 62
               3
  5
183
 10
-38.590485190064669
 20
-471.40026246719162
 30
0.0
 11
-43.598425196850272
 21
-471.40026246719162
 31
0.0
  0
LINE
  8
0
  6
CONTINUOUS
 62
               3
  5
184
 10
-43.598425196850272
 20
-610.40026246719162
 30
0.0
 11
-38.590485190064669
 21
-610.40026246719162
 31
0.0
  0
LINE
  8
0
  6
CONTINUOUS
 62
               3
  5
185
 10
-233.15536248698578
 20
-559.90026246719162
 30
0.0
 11
-190.70128036968507
 21
-559.90026246719162
 31
0.0
  0
LINE
  8
0
  6
CONTINUOUS
 62
               3
  5
186
 10
-229.59842519685037
 20
-559.90026246719162
 30
0.0
 11
-229.59842519685037
 21
-589.90026246719162
 31
0.0
  0
LINE
  8
0
  6
CONTINUOUS
 62
               3
  5
187
 10
-195.59842519685037
 20
-589.90026246719162
 30
0.0
 11
-195.59842519685037
 21
-559.90026246719162
 31
0.0
  0
LINE
  8
0
  6
CONTINUOUS
 62
               3
  5
188
 10
-229.59842519685037
 20
-589.90026246719162
 30
0.0
 11
-195.59842519685037
 21
-589.90026246719162
 31
0.0
  0
LINE
  8
0
  6
CONTINUOUS
 62
               3
  5
189
 10
-217.59842519685037
 20
-559.90026246719162
 30
0.0
 11
-217.59842519685037
 21
-589.90026246719162
 31
0.0
  0
LINE
  8
0
  6
CONTINUOUS
 62
               3
  5
18A
 10
-207.59842519685037
 20
-589.90026246719162
 30
0.0
 11
-207.59842519685037
 21
-559.90026246719162
 31
0.0
  0
LINE
  8
0
  6
CONTINUOUS
 62
               3
  5
18B
 10
-233.15536248698578
 20
-559.90026246719162
 30
0.0
 11
-237.37680661734854
 21
-511.64893526396042
 31
0.0
  0
ARC
  8
0
  6
CONTINUOUS
 62
               3
  5
18C
 10
487.40157480314963
 20
-539.90026246719162
 30
0.0
 40
90.0
 50
302.88320949568157
 51
359.99999999986164
  0
ARC
  8
0
  6
CONTINUOUS
 62
               3
  5
18D
 10
487.40157480314963
 20
-630.40026246719162
 30
0.0
 40
14.0
 50
237.11679050411198
 51
302.88320949568163
  0
LINE
  8
0
  6
CONTINUOUS
 62
               3
  5
18E
 10
479.80057753381618
 20
-642.15716854453967
 30
0.0
 11
438.53802092886258
 21
-615.48037296442908
 31
0.0
  0
LINE
  8
0
  6
CONTINUOUS
 62
               3
  5
18F
 10
495.00257207248325
 20
-642.15716854453967
 30
0.0
 11
536.26512867743668
 21
-615.48037296442919
 31
0.0
  0
ARC
  8
0
  6
CONTINUOUS
 62
               3
  5
190
 10
565.77687384564126
 20
-494.65026246719162
 30
0.0
 40
14.0
 50
357.11679050406616
 51
422.88320949563501
  0
LINE
  8
0
  6
CONTINUOUS
 62
               3
  5
191
 10
579.75915181319908
 20
-495.35446615785668
 30
0.0
 11
577.28764745173578
 21
-544.42728619289505
 31
0.0
  0
LINE
  8
0
  6
CONTINUOUS
 62
               3
  5
192
 10
572.15815454386552
 20
-482.18915269917869
 30
0.0
 11
528.42409357744873
 21
-459.79312824425074
 31
0.0
  0
ARC
  8
0
  6
CONTINUOUS
 62
               3
  5
193
 10
409.026275760658
 20
-494.65026246719162
 30
0.0
 40
14.0
 50
104.56013385555077
 51
182.88320949572741
  0
LINE
  8
0
  6
CONTINUOUS
 62
               3
  5
194
 10
402.64499506243368
 20
-482.18915269917858
 30
0.0
 11
446.3790560288507
 21
-459.79312824425074
 31
0.0
  0
LINE
  8
0
  6
CONTINUOUS
 62
               3
  5
195
 10
395.04399779310006
 20
-495.35446615785656
 30
0.0
 11
397.51550215456348
 21
-544.42728619289494
 31
0.0
  0
ARC
  8
0
  6
CONTINUOUS
 62
               3
  5
196
 10
487.40157480314963
 20
-539.90026246719162
 30
0.0
 40
90.0
 50
179.99999999993119
 51
237.11679050411189
  0
ARC
  8
0
  6
CONTINUOUS
 62
               3
  5
197
 10
487.40157480314963
 20
-539.90026246719162
 30
0.0
 40
90.0
 50
62.883209495773364
 51
117.11679050415775
  0
CIRCLE
  8
0
  6
CONTINUOUS
 62
               3
  5
198
 10
487.40157480314963
 20
-539.90026246719162
 30
0.0
 40
71.5
  0
LINE
  8
0
  6
CONTINUOUS
 62
               3
  5
199
 10
417.90157480314963
 20
-474.37632385545402
 30
0.0
 11
417.90157480314963
 21
-370.90026246719162
 31
0.0
  0
ARC
  8
0
  6
CONTINUOUS
 62
               3
  5
19A
 10
428.90157480314969
 20
-369.07941907557472
 30
0.0
 40
11.0
 50
133.55420875229669
 51
163.20105095598726
  0
LINE
  8
0
  6
CONTINUOUS
 62
               3
  5
19B
 10
556.90157480314963
 20
-474.37632385545407
 30
0.0
 11
556.90157480314963
 21
-370.90026246719174
 31
0.0
  0
ARC
  8
0
  6
CONTINUOUS
 62
               3
  5
19C
 10
545.90157480314951
 20
-369.12609104549881
 30
0.0
 40
11.0
 50
17.053057452006115
 51
46.688891510049054
  0
LINE
  8
0
  6
CONTINUOUS
 62
               3
  5
19D
 10
417.90157480314963
 20
-370.90026246719174
 30
0.0
 11
556.90157480314963
 21
-370.90026246719174
 31
0.0
  0
LINE
  8
0
  6
CONTINUOUS
 62
               3
  5
19E
 10
422.87692584984325
 20
-339.91454515362733
 30
0.0
 11
422.87692584984325
 21
-357.48385460219265
 31
0.0
  0
ARC
  8
0
  6
CONTINUOUS
 62
               3
  5
19F
 10
417.87692584984325
 20
-357.48385460219265
 30
0.0
 40
4.9999999999999991
 50
313.55420875222813
 51
359.99999999986176
  0
LINE
  8
0
  6
CONTINUOUS
 62
               3
  5
1A0
 10
551.87692584984302
 20
-339.91454515362733
 30
0.0
 11
551.87692584984302
 21
-357.48385460219265
 31
0.0
  0
ARC
  8
0
  6
CONTINUOUS
 62
               3
  5
1A1
 10
556.87692584984302
 20
-357.48385460219265
 30
0.0
 40
4.9999999999999991
 50
179.99999999993119
 51
226.68889150997995
  0
LINE
  8
0
  6
CONTINUOUS
 62
               3
  5
1A2
 10
417.87692584984285
 20
-365.90026246719174
 30
0.0
 11
556.90157480314963
 21
-365.90026246719174
 31
0.0
  0
ARC
  8
0
  6
CONTINUOUS
 62
               3
  5
1A3
 10
556.90157480314963
 20
-368.40026246719174
 30
0.0
 40
2.5
 50
269.99999999989683
 51
449.99999999982737
  0
ARC
  8
0
  6
CONTINUOUS
 62
               3
  5
1A4
 10
417.90157480314963
 20
-368.40026246719162
 30
0.0
 40
2.5
 50
89.999999999965596
 51
269.99999999989711
  0
LINE
  8
0
  6
CONTINUOUS
 62
               3
  5
1A5
 10
411.92622375645607
 20
-324.90026246719162
 30
0.0
 11
411.92622375645567
 21
-339.90026246719162
 31
0.0
  0
LINE
  8
0
  6
CONTINUOUS
 62
               3
  5
1A6
 10
411.92622375645607
 20
-324.90026246719162
 30
0.0
 11
562.87692584984336
 21
-324.90026246719162
 31
0.0
  0
LINE
  8
0
  6
CONTINUOUS
 62
               3
  5
1A7
 10
411.92622375645567
 20
-339.90026246719162
 30
0.0
 11
562.87692584984359
 21
-339.90026246719162
 31
0.0
  0
LINE
  8
0
  6
CONTINUOUS
 62
               3
  5
1A8
 10
562.87692584984336
 20
-324.90026246719162
 30
0.0
 11
562.87692584984359
 21
-339.90026246719162
 31
0.0
  0
LINE
  8
0
  6
CONTINUOUS
 62
               3
  5
1A9
 10
411.92622375645601
 20
-297.90026246719162
 30
0.0
 11
562.92622375645612
 21
-297.90026246719162
 31
0.0
  0
LINE
  8
0
  6
CONTINUOUS
 62
               3
  5
1AA
 10
411.92622375645601
 20
-312.90026246719162
 30
0.0
 11
562.92622375645601
 21
-312.90026246719162
 31
0.0
  0
LINE
  8
0
  6
CONTINUOUS
 62
               3
  5
1AB
 10
562.92622375645601
 20
-312.90026246719162
 30
0.0
 11
562.92622375645612
 21
-297.90026246719162
 31
0.0
  0
LINE
  8
0
  6
CONTINUOUS
 62
               3
  5
1AC
 10
411.92622375645601
 20
-297.90026246719162
 30
0.0
 11
411.92622375645601
 21
-312.90026246719162
 31
0.0
  0
CIRCLE
  8
0
  6
CONTINUOUS
 62
               3
  5
1AD
 10
409.026275760658
 20
-494.65026246719162
 30
0.0
 40
9.0
  0
CIRCLE
  8
0
  6
CONTINUOUS
 62
               3
  5
1AE
 10
565.77687384564126
 20
-494.65026246719162
 30
0.0
 40
9.0
  0
CIRCLE
  8
0
  6
CONTINUOUS
 62
               3
  5
1AF
 10
487.40157480314963
 20
-630.40026246719162
 30
0.0
 40
9.0
  0
LINE
  8
0
  6
CONTINUOUS
 62
               3
  5
1B0
 10
421.40157480314963
 20
-324.90026246719162
 30
0.0
 11
421.40157480314963
 21
-312.90026246719162
 31
0.0
  0
LINE
  8
0
  6
CONTINUOUS
 62
               3
  5
1B1
 10
553.40157480314963
 20
-312.90026246719162
 30
0.0
 11
553.40157480314963
 21
-324.90026246719162
 31
0.0
  0
POINT
  8
0
  6
CONTINUOUS
 62
               5
  5
1B2
 10
-212.59842519685037
 20
-539.90026246719162
 30
0.0
  0
ENDSEC
  0
EOF
